BlogMusic

“Far Behind” CandleBox Guitar Tab

This is an older song that has a great opening guitar riff and just about everyone has heard it before.  It was on the radio a few times this weekend and I just had to put the first part up here. Kick on some chorus and a slight delay and you have a nice little piece to show off your guitar chops.

CandleboxCandlebox
                        "Far Behind" by Candlebox
                        Transcribed by Roger Meech

Intro: 

e---------------------|---------------------------|-----2---------|
B-----10---10/12---10-|-----12--12-12--10--10-10--|-------3-------|
G-0------0-------0----|-----12--12-12--11--11-11--|---------------|
D---------------------|---------------------------|-0--------0----|
A---------------------|---------------------------|---------------|
E---------------------|-0-------------------------|---------------|

e-----------------0----0-----| 
B-------------3----3----3----|
G-----------0--------------0-|
D---------2---------2----2---|
A-0-2-3----------------------|
E----------------------------|

For the Full Tab, check it out at Ultimate-Guitar.com

Leave a Reply

Your email address will not be published. Required fields are marked *

This site uses Akismet to reduce spam. Learn how your comment data is processed.