BlogMusic

Cake’s I Will Survive Bass Tab

Cake is pretty good band, they definitely have some good chops and songwriting skills. A few years ago they covered I Will Survive and did one helluva job. Here’s the bassline for it, which is repeated throughout the whole song. 

g-------------------------7----5-5---5-7
d-----7---5-5---5-7---------7------7---------
a-------7-----7-----7-5-5--------------------
e-5-5----------------------------------------

g---------------------------5---3-3----3-5-3-2-1
d------5----3-3---3-5---------5-----5-----------
a--------5------5-----5--3----------------------
e-3-3-------------------------------------------

g----------------------------4------4-4-4-
d-------3----1-1---1-3------4--4-4--------
a---------3------3-----3-1----------------
e-1-1-------------------------------------

g-------------------------------
d-------2---2-2-2---22/44/55/66-
a---------2-------2-------------
e-0-0---------------------------

Leave a Reply

Your email address will not be published. Required fields are marked *

This site uses Akismet to reduce spam. Learn how your comment data is processed.